  0
SECTION
  2
HEADER
  9
$ACADVER
  1
AC1009
  9
$DWGCODEPAGE
  3
dos932
  9
$INSBASE
 10
0.0
 20
0.0
 30
0.0
  9
$EXTMIN
 10
0.0
 20
0.0
 30
0.0
  9
$EXTMAX
 10
297.0
 20
210.0
 30
0.0
  9
$LIMMIN
 10
0.0
 20
0.0
  9
$LIMMAX
 10
297.0
 20
210.0
  9
$ORTHOMODE
 70
     0
  9
$REGENMODE
 70
     1
  9
$FILLMODE
 70
     1
  9
$QTEXTMODE
 70
     0
  9
$MIRRTEXT
 70
     1
  9
$DRAGMODE
 70
     2
  9
$LTSCALE
 40
1.0
  9
$OSMODE
 70
    37
  9
$ATTMODE
 70
     1
  9
$TEXTSIZE
 40
3.5
  9
$TRACEWID
 40
1.0
  9
$TEXTSTYLE
  7
STANDARD
  9
$CLAYER
  8
0
  9
$CELTYPE
  6
BYLAYER
  9
$CECOLOR
 62
   256
  9
$DIMSCALE
 40
1.0
  9
$DIMASZ
 40
2.0
  9
$DIMEXO
 40
1.0
  9
$DIMDLI
 40
3.75
  9
$DIMRND
 40
0.0
  9
$DIMDLE
 40
0.0
  9
$DIMEXE
 40
1.0
  9
$DIMTP
 40
0.0
  9
$DIMTM
 40
0.0
  9
$DIMTXT
 40
3.5
  9
$DIMCEN
 40
2.5
  9
$DIMTSZ
 40
0.0
  9
$DIMTOL
 70
     0
  9
$DIMLIM
 70
     0
  9
$DIMTIH
 70
     1
  9
$DIMTOH
 70
     1
  9
$DIMSE1
 70
     0
  9
$DIMSE2
 70
     0
  9
$DIMTAD
 70
     1
  9
$DIMZIN
 70
     0
  9
$DIMBLK
  1

  9
$DIMASO
 70
     1
  9
$DIMSHO
 70
     1
  9
$DIMPOST
  1

  9
$DIMAPOST
  1

  9
$DIMALT
 70
     0
  9
$DIMALTD
 70
     3
  9
$DIMALTF
 40
0.0393700787
  9
$DIMLFAC
 40
1.0
  9
$DIMTOFL
 70
     1
  9
$DIMTVP
 40
0.0
  9
$DIMTIX
 70
     0
  9
$DIMSOXD
 70
     0
  9
$DIMSAH
 70
     0
  9
$DIMBLK1
  1

  9
$DIMBLK2
  1

  9
$DIMSTYLE
  2
ISO-25
  9
$DIMCLRD
 70
     0
  9
$DIMCLRE
 70
     0
  9
$DIMCLRT
 70
     0
  9
$DIMTFAC
 40
1.0
  9
$DIMGAP
 40
1.524
  9
$LUNITS
 70
     2
  9
$LUPREC
 70
     1
  9
$SKETCHINC
 40
1.0
  9
$FILLETRAD
 40
10.0
  9
$AUNITS
 70
     0
  9
$AUPREC
 70
     2
  9
$MENU
  1
.
  9
$ELEVATION
 40
0.0
  9
$PELEVATION
 40
0.0
  9
$THICKNESS
 40
0.0
  9
$LIMCHECK
 70
     0
  9
$CHAMFERA
 40
0.0
  9
$CHAMFERB
 40
0.0
  9
$SKPOLY
 70
     0
  9
$TDCREATE
 40
2460202.684636875
  9
$TDUPDATE
 40
2460202.684637234
  9
$TDINDWG
 40
0.0000000116
  9
$TDUSRTIMER
 40
0.0000000116
  9
$USRTIMER
 70
     1
  9
$ANGBASE
 50
0.0
  9
$ANGDIR
 70
     0
  9
$PDMODE
 70
     0
  9
$PDSIZE
 40
-1.0
  9
$PLINEWID
 40
0.0
  9
$COORDS
 70
     1
  9
$SPLFRAME
 70
     0
  9
$SPLINETYPE
 70
     6
  9
$SPLINESEGS
 70
     8
  9
$ATTDIA
 70
     0
  9
$ATTREQ
 70
     1
  9
$HANDLING
 70
     1
  9
$HANDSEED
  5
1B3
  9
$SURFTAB1
 70
     6
  9
$SURFTAB2
 70
     6
  9
$SURFTYPE
 70
     6
  9
$SURFU
 70
     6
  9
$SURFV
 70
     6
  9
$UCSNAME
  2

  9
$UCSORG
 10
0.0
 20
0.0
 30
0.0
  9
$UCSXDIR
 10
1.0
 20
0.0
 30
0.0
  9
$UCSYDIR
 10
0.0
 20
1.0
 30
0.0
  9
$PUCSNAME
  2

  9
$PUCSORG
 10
0.0
 20
0.0
 30
0.0
  9
$PUCSXDIR
 10
1.0
 20
0.0
 30
0.0
  9
$PUCSYDIR
 10
0.0
 20
1.0
 30
0.0
  9
$USERI1
 70
     0
  9
$USERI2
 70
     0
  9
$USERI3
 70
     0
  9
$USERI4
 70
     0
  9
$USERI5
 70
     0
  9
$USERR1
 40
0.0
  9
$USERR2
 40
0.0
  9
$USERR3
 40
0.0
  9
$USERR4
 40
0.0
  9
$USERR5
 40
0.0
  9
$WORLDVIEW
 70
     1
  9
$SHADEDGE
 70
     3
  9
$SHADEDIF
 70
    70
  9
$TILEMODE
 70
     1
  9
$MAXACTVP
 70
    64
  9
$PLIMCHECK
 70
     0
  9
$PEXTMIN
 10
1.0000000000E+20
 20
1.0000000000E+20
 30
1.0000000000E+20
  9
$PEXTMAX
 10
-1.0000000000E+20
 20
-1.0000000000E+20
 30
-1.0000000000E+20
  9
$PLIMMIN
 10
0.0
 20
0.0
  9
$PLIMMAX
 10
420.0
 20
297.0
  9
$UNITMODE
 70
     0
  9
$VISRETAIN
 70
     1
  9
$PLINEGEN
 70
     0
  9
$PSLTSCALE
 70
     1
  0
ENDSEC
  0
SECTION
  2
TABLES
  0
TABLE
  2
VPORT
 70
     1
  0
VPORT
  2
*ACTIVE
 70
     0
 10
0.0
 20
0.0
 11
1.0
 21
1.0
 12
148.5
 22
105.0
 13
0.0
 23
0.0
 14
10.0
 24
10.0
 15
10.0
 25
10.0
 16
0.0
 26
0.0
 36
1.0
 17
0.0
 27
0.0
 37
0.0
 40
210.0
 41
1.4142857143
 42
50.0
 43
0.0
 44
0.0
 50
0.0
 51
0.0
 71
     0
 72
  2000
 73
     1
 74
     3
 75
     0
 76
     0
 77
     0
 78
     0
  0
ENDTAB
  0
TABLE
  2
LTYPE
 70
     6
  0
LTYPE
  2
CONTINUOUS
 70
     0
  3
Solid line
 72
    65
 73
     0
 40
0.0
  0
LTYPE
  2
HIDDEN
 70
     0
  3
Hidden __ __ __ __ __ __ __ __ __ __ __ __ __ __
 72
    65
 73
     2
 40
1.905
 49
1.27
 49
-0.635
  0
LTYPE
  2
PHANTOM
 70
     0
  3
Phantom ______  __  __  ______  __  __  ______
 72
    65
 73
     6
 40
12.7
 49
6.35
 49
-1.27
 49
1.27
 49
-1.27
 49
1.27
 49
-1.27
  0
LTYPE
  2
CENTER
 70
     0
  3
Center ____ _ ____ _ ____ _ ____ _ ____ _ ____
 72
    65
 73
     4
 40
10.16
 49
6.35
 49
-1.27
 49
1.27
 49
-1.27
  0
LTYPE
  2
CENTERX2
 70
     0
  3
Center (2x) ________  __  ________  __  _____
 72
    65
 73
     4
 40
20.32
 49
12.7
 49
-2.54
 49
2.54
 49
-2.54
  0
LTYPE
  2
DOT2
 70
     0
  3
Dot (.5x) ........................................
 72
    65
 73
     2
 40
0.635
 49
0.0
 49
-0.635
  0
ENDTAB
  0
TABLE
  2
LAYER
 70
     4
  0
LAYER
  2
0
 70
     0
 62
     7
  6
CONTINUOUS
  0
LAYER
  2
SLD-0
 70
     0
 62
     7
  6
CONTINUOUS
  0
LAYER
  2
1
 70
     0
 62
     7
  6
CONTINUOUS
  0
LAYER
  2
_CONSTR
 70
     0
 62
     5
  6
CONTINUOUS
  0
ENDTAB
  0
TABLE
  2
STYLE
 70
     1
  0
STYLE
  2
STANDARD
 70
     0
 40
0.0
 41
1.0
 50
0.0
 71
     0
 42
3.5
  3
txt
  4
bigfont
  0
ENDTAB
  0
TABLE
  2
VIEW
 70
     0
  0
ENDTAB
  0
TABLE
  2
UCS
 70
     0
  0
ENDTAB
  0
TABLE
  2
APPID
 70
     1
  0
APPID
  2
ACAD
 70
     0
  0
ENDTAB
  0
TABLE
  2
DIMSTYLE
 70
     1
  0
DIMSTYLE
  2
ISO-25
 70
     0
  3

  4

  5

  6

  7

 40
1.0
 41
2.5
 42
0.625
 43
3.75
 44
1.25
 45
0.0
 46
0.0
 47
0.0
 48
0.0
140
2.5
141
2.5
142
0.0
143
0.0393700787
144
1.0
145
0.0
146
1.0
147
0.625
 71
     0
 72
     0
 73
     0
 74
     0
 75
     0
 76
     0
 77
     1
 78
     8
170
     0
171
     3
172
     1
173
     0
174
     0
175
     0
176
     0
177
     0
178
     0
  0
ENDTAB
  0
ENDSEC
  0
SECTION
  2
BLOCKS
  0
BLOCK
  8
0
  2
$MODEL_SPACE
 70
     0
 10
0.0
 20
0.0
 30
0.0
  3
$MODEL_SPACE
  1

  0
ENDBLK
  5
21
  8
0
  0
BLOCK
 67
     1
  8
0
  2
$PAPER_SPACE
 70
     0
 10
0.0
 20
0.0
 30
0.0
  3
$PAPER_SPACE
  1

  0
ENDBLK
  5
1D
 67
     1
  8
0
  0
BLOCK
  8
0
  2
SW_CENTERMARKSYMBOL_0
 70
     0
 10
0.0
 20
0.0
 30
0.0
  3
SW_CENTERMARKSYMBOL_0
  1

  0
LINE
  5
12F
  8
1
 62
     0
 10
0.0
 20
0.0
 30
0.0
 11
0.0
 21
2.5
 31
0.0
  0
LINE
  5
130
  8
1
 62
     0
 10
0.0
 20
0.0
 30
0.0
 11
-2.5
 21
0.0
 31
0.0
  0
LINE
  5
131
  8
1
 62
     0
 10
0.0
 20
0.0
 30
0.0
 11
0.0
 21
-2.5
 31
0.0
  0
LINE
  5
132
  8
1
 62
     0
 10
0.0
 20
0.0
 30
0.0
 11
2.5
 21
0.0
 31
0.0
  0
LINE
  5
133
  8
1
 62
     0
 10
0.0
 20
5.0
 30
0.0
 11
0.0
 21
26.4539087902
 31
0.0
  0
LINE
  5
134
  8
1
 62
     0
 10
-5.0
 20
0.0
 30
0.0
 11
-26.6042090698
 21
0.0
 31
0.0
  0
LINE
  5
135
  8
1
 62
     0
 10
0.0
 20
-5.0
 30
0.0
 11
0.0
 21
-26.5493588716
 31
0.0
  0
LINE
  5
136
  8
1
 62
     0
 10
5.0
 20
0.0
 30
0.0
 11
26.3990585919
 21
0.0
 31
0.0
  0
ENDBLK
  5
12E
  8
0
  0
BLOCK
  8
0
  2
SW_CENTERMARKSYMBOL_1
 70
     0
 10
0.0
 20
0.0
 30
0.0
  3
SW_CENTERMARKSYMBOL_1
  1

  0
LINE
  5
162
  8
1
 62
     0
 10
0.0
 20
0.0
 30
0.0
 11
0.0
 21
2.5
 31
0.0
  0
LINE
  5
163
  8
1
 62
     0
 10
0.0
 20
0.0
 30
0.0
 11
-2.5
 21
0.0
 31
0.0
  0
LINE
  5
164
  8
1
 62
     0
 10
0.0
 20
0.0
 30
0.0
 11
0.0
 21
-2.5
 31
0.0
  0
LINE
  5
165
  8
1
 62
     0
 10
0.0
 20
0.0
 30
0.0
 11
2.5
 21
0.0
 31
0.0
  0
LINE
  5
166
  8
1
 62
     0
 10
0.0
 20
5.0
 30
0.0
 11
0.0
 21
26.4743739288
 31
0.0
  0
LINE
  5
167
  8
1
 62
     0
 10
-5.0
 20
0.0
 30
0.0
 11
-26.5414173429
 21
0.0
 31
0.0
  0
LINE
  5
168
  8
1
 62
     0
 10
0.0
 20
-5.0
 30
0.0
 11
0.0
 21
-26.5244711187
 31
0.0
  0
LINE
  5
169
  8
1
 62
     0
 10
5.0
 20
0.0
 30
0.0
 11
26.5842191999
 21
0.0
 31
0.0
  0
ENDBLK
  5
161
  8
0
  0
ENDSEC
  0
SECTION
  2
ENTITIES
  0
TEXT
  5
76
  8
0
  6
CONTINUOUS
 62
     7
 10
266.6258552458
 20
9.5884203146
 30
0.0
 40
3.5
  1
229935
 41
0.7
 11
266.6258552458
 21
8.3520100979
 31
0.0
 73
     1
  0
TEXT
  5
77
  8
0
  6
CONTINUOUS
 62
     7
 10
264.3477801158
 20
22.2772172701
 30
0.0
 40
3.5
  1
9/15/2023
 41
0.7
 11
264.3477801158
 21
21.0408070534
 31
0.0
 73
     1
  0
TEXT
  5
78
  8
0
  6
CONTINUOUS
 62
     7
 10
220.1739416155
 20
9.5884203146
 30
0.0
 40
3.5
  1
PEIR10X-2000HRS
 41
0.7
 11
220.1739416155
 21
8.3520100979
 31
0.0
 73
     1
  0
LINE
  5
79
  8
0
  6
CONTINUOUS
 62
     7
 10
155.6327364798
 20
88.3700521062
 30
0.0
 11
156.1327364798
 21
88.8700521062
 31
0.0
  0
LINE
  5
7A
  8
0
  6
CONTINUOUS
 62
     7
 10
156.1327364798
 20
131.8700521062
 30
0.0
 11
155.6327364798
 21
132.3700521062
 31
0.0
  0
LINE
  5
7B
  8
0
  6
CONTINUOUS
 62
     7
 10
114.1327364798
 20
88.3700521062
 30
0.0
 11
155.6327364798
 21
88.3700521062
 31
0.0
  0
LINE
  5
7C
  8
0
  6
CONTINUOUS
 62
     7
 10
155.6327364798
 20
132.3700521062
 30
0.0
 11
114.1327364798
 21
132.3700521062
 31
0.0
  0
LINE
  5
7D
  8
0
  6
CONTINUOUS
 62
     7
 10
112.1327364798
 20
88.3700521062
 30
0.0
 11
113.1327364798
 21
88.3700521062
 31
0.0
  0
LINE
  5
7E
  8
0
  6
CONTINUOUS
 62
     7
 10
113.1327364798
 20
132.3700521062
 30
0.0
 11
112.1327364798
 21
132.3700521062
 31
0.0
  0
LINE
  5
7F
  8
0
  6
CONTINUOUS
 62
     7
 10
112.1327364798
 20
132.3700521062
 30
0.0
 11
111.1327364798
 21
131.3700521062
 31
0.0
  0
LINE
  5
80
  8
0
  6
CONTINUOUS
 62
     7
 10
111.1327364798
 20
89.3700521062
 30
0.0
 11
112.1327364798
 21
88.3700521062
 31
0.0
  0
LINE
  5
81
  8
0
  6
CONTINUOUS
 62
     7
 10
113.1327364798
 20
88.6700521062
 30
0.0
 11
114.1327364798
 21
88.6700521062
 31
0.0
  0
LINE
  5
82
  8
0
  6
CONTINUOUS
 62
     7
 10
114.1327364798
 20
132.0700521062
 30
0.0
 11
113.1327364798
 21
132.0700521062
 31
0.0
  0
LINE
  5
83
  8
0
  6
CONTINUOUS
 62
     7
 10
180.1327364798
 20
89.8700521062
 30
0.0
 11
183.1327364798
 21
92.8700521062
 31
0.0
  0
LINE
  5
84
  8
0
  6
CONTINUOUS
 62
     7
 10
183.1327364798
 20
127.8700521062
 30
0.0
 11
180.1327364798
 21
130.8700521062
 31
0.0
  0
LINE
  5
85
  8
0
  6
CONTINUOUS
 62
     7
 10
171.1327364798
 20
89.8700521062
 30
0.0
 11
180.1327364798
 21
89.8700521062
 31
0.0
  0
LINE
  5
86
  8
0
  6
CONTINUOUS
 62
     7
 10
180.1327364798
 20
130.8700521062
 30
0.0
 11
171.1327364798
 21
130.8700521062
 31
0.0
  0
LINE
  5
87
  8
0
  6
CONTINUOUS
 62
     7
 10
185.9327364798
 20
95.3700521062
 30
0.0
 11
186.1327364798
 21
95.5700521062
 31
0.0
  0
LINE
  5
88
  8
0
  6
CONTINUOUS
 62
     7
 10
186.1327364798
 20
125.1700521062
 30
0.0
 11
185.9327364798
 21
125.3700521062
 31
0.0
  0
LINE
  5
89
  8
0
  6
CONTINUOUS
 62
     7
 10
183.1327364798
 20
95.3700521062
 30
0.0
 11
185.9327364798
 21
95.3700521062
 31
0.0
  0
LINE
  5
8A
  8
0
  6
CONTINUOUS
 62
     7
 10
185.9327364798
 20
125.3700521062
 30
0.0
 11
183.1327364798
 21
125.3700521062
 31
0.0
  0
LINE
  5
8B
  8
0
  6
CONTINUOUS
 62
     7
 10
189.7797364798
 20
97.3700521062
 30
0.0
 11
190.1327364798
 21
97.7230521062
 31
0.0
  0
LINE
  5
8C
  8
0
  6
CONTINUOUS
 62
     7
 10
190.1327364798
 20
123.0170521062
 30
0.0
 11
189.7797364798
 21
123.3700521062
 31
0.0
  0
LINE
  5
8D
  8
0
  6
CONTINUOUS
 62
     7
 10
187.1327364798
 20
97.3700521062
 30
0.0
 11
189.7797364798
 21
97.3700521062
 31
0.0
  0
LINE
  5
8E
  8
0
  6
CONTINUOUS
 62
     7
 10
189.7797364798
 20
123.3700521062
 30
0.0
 11
187.1327364798
 21
123.3700521062
 31
0.0
  0
LINE
  5
8F
  8
0
  6
CONTINUOUS
 62
     7
 10
186.1327364798
 20
97.7230521062
 30
0.0
 11
187.1327364798
 21
97.7230521062
 31
0.0
  0
LINE
  5
90
  8
0
  6
CONTINUOUS
 62
     7
 10
187.1327364798
 20
123.0170521062
 30
0.0
 11
186.1327364798
 21
123.0170521062
 31
0.0
  0
LINE
  5
91
  8
0
  6
CONTINUOUS
 62
     7
 10
190.8327364798
 20
97.8700521062
 30
0.0
 11
191.1327364798
 21
98.1700521062
 31
0.0
  0
LINE
  5
92
  8
0
  6
CONTINUOUS
 62
     7
 10
191.1327364798
 20
122.5700521062
 30
0.0
 11
190.8327364798
 21
122.8700521062
 31
0.0
  0
LINE
  5
93
  8
0
  6
CONTINUOUS
 62
     7
 10
190.1327364798
 20
97.8700521062
 30
0.0
 11
190.8327364798
 21
97.8700521062
 31
0.0
  0
LINE
  5
94
  8
0
  6
CONTINUOUS
 62
     7
 10
190.8327364798
 20
122.8700521062
 30
0.0
 11
190.1327364798
 21
122.8700521062
 31
0.0
  0
LINE
  5
95
  8
0
  6
CONTINUOUS
 62
     7
 10
156.1327364798
 20
88.8700521062
 30
0.0
 11
156.1327364798
 21
131.8700521062
 31
0.0
  0
LINE
  5
96
  8
0
  6
CONTINUOUS
 62
     7
 10
155.6327364798
 20
88.3700521062
 30
0.0
 11
155.6327364798
 21
132.3700521062
 31
0.0
  0
LINE
  5
97
  8
0
  6
CONTINUOUS
 62
     7
 10
114.1327364798
 20
88.3700521062
 30
0.0
 11
114.1327364798
 21
132.3700521062
 31
0.0
  0
LINE
  5
98
  8
0
  6
CONTINUOUS
 62
     7
 10
113.1327364798
 20
88.3700521062
 30
0.0
 11
113.1327364798
 21
132.3700521062
 31
0.0
  0
LINE
  5
99
  8
0
  6
CONTINUOUS
 62
     7
 10
112.1327364798
 20
88.3700521062
 30
0.0
 11
112.1327364798
 21
132.3700521062
 31
0.0
  0
LINE
  5
9A
  8
0
  6
CONTINUOUS
 62
     7
 10
111.1327364798
 20
89.3700521062
 30
0.0
 11
111.1327364798
 21
131.3700521062
 31
0.0
  0
LINE
  5
9B
  8
0
  6
CONTINUOUS
 62
     7
 10
170.1327364798
 20
101.8123483856
 30
0.0
 11
170.1327364798
 21
107.3767261968
 31
0.0
  0
ARC
  5
9C
  8
0
  6
CONTINUOUS
 62
     7
 10
165.9752526588
 20
110.4293452893
 30
0.0
 40
5.157824642770302
 50
323.7121432875
 51
359.3413261971
  0
LINE
  5
9D
  8
0
  6
CONTINUOUS
 62
     7
 10
171.1327364798
 20
110.3700521062
 30
0.0
 11
171.1327364798
 21
99.6200521062
 31
0.0
  0
ARC
  5
9E
  8
0
  6
CONTINUOUS
 62
     7
 10
168.3792199949
 20
99.6882750945
 30
0.0
 40
2.754361524703201
 50
358.5806913662
 51
50.4588192573
  0
LINE
  5
9F
  8
0
  6
CONTINUOUS
 62
     7
 10
170.1327364798
 20
113.3633780157
 30
0.0
 11
157.1327364798
 21
113.3633780157
 31
0.0
  0
ARC
  5
A0
  8
0
  6
CONTINUOUS
 62
     7
 10
165.8623635472
 20
110.273045318
 30
0.0
 40
5.271265613242071
 50
1.0544703547
 51
35.8920601606
  0
LINE
  5
A1
  8
0
  6
CONTINUOUS
 62
     7
 10
157.1327364798
 20
107.3767261968
 30
0.0
 11
170.1327364798
 21
107.3767261968
 31
0.0
  0
ARC
  5
A2
  8
0
  6
CONTINUOUS
 62
     7
 10
161.4031094124
 20
110.4670588945
 30
0.0
 40
5.271265613242241
 50
181.0544703547
 51
215.8920601606
  0
ARC
  5
A3
  8
0
  6
CONTINUOUS
 62
     7
 10
161.2902203008
 20
110.3107589232
 30
0.0
 40
5.157824642768057
 50
143.7121432875
 51
179.3413261972
  0
LINE
  5
A4
  8
0
  6
CONTINUOUS
 62
     7
 10
157.1327364798
 20
118.9277558269
 30
0.0
 11
157.1327364798
 21
113.3633780157
 31
0.0
  0
LINE
  5
A5
  8
0
  6
CONTINUOUS
 62
     7
 10
156.1327364798
 20
110.3700521062
 30
0.0
 11
156.1327364798
 21
121.1200521062
 31
0.0
  0
ARC
  5
A6
  8
0
  6
CONTINUOUS
 62
     7
 10
158.8862529647
 20
121.051829118
 30
0.0
 40
2.754361524702993
 50
178.5806913662
 51
230.4588192573
  0
LINE
  5
A7
  8
0
  6
CONTINUOUS
 62
     7
 10
171.1327364798
 20
121.1200521062
 30
0.0
 11
171.1327364798
 21
110.3700521062
 31
0.0
  0
LINE
  5
A8
  8
0
  6
CONTINUOUS
 62
     7
 10
170.1327364798
 20
113.3633780157
 30
0.0
 11
170.1327364798
 21
118.9277558269
 31
0.0
  0
ARC
  5
A9
  8
0
  6
CONTINUOUS
 62
     7
 10
168.381131491
 20
121.0509572029
 30
0.0
 40
2.752472365020541
 50
309.5220508682
 51
1.4384385083
  0
LINE
  5
AA
  8
0
  6
CONTINUOUS
 62
     7
 10
156.1327364798
 20
99.6200521062
 30
0.0
 11
156.1327364798
 21
110.3700521062
 31
0.0
  0
LINE
  5
AB
  8
0
  6
CONTINUOUS
 62
     7
 10
157.1327364798
 20
107.3767261968
 30
0.0
 11
157.1327364798
 21
101.8123483856
 31
0.0
  0
ARC
  5
AC
  8
0
  6
CONTINUOUS
 62
     7
 10
158.8843414686
 20
99.6891470095
 30
0.0
 40
2.752472365020526
 50
129.5220508682
 51
181.4384385083
  0
LINE
  5
AD
  8
0
  6
CONTINUOUS
 62
     7
 10
157.1327364798
 20
118.9277558269
 30
0.0
 11
170.1327364798
 21
118.9277558269
 31
0.0
  0
LINE
  5
AE
  8
0
  6
CONTINUOUS
 62
     7
 10
170.1327364798
 20
101.8123483856
 30
0.0
 11
157.1327364798
 21
101.8123483856
 31
0.0
  0
ARC
  5
AF
  8
0
  6
CONTINUOUS
 62
     7
 10
161.989898152
 20
99.9142218937
 30
0.0
 40
5.86454420374747
 50
182.8752044007
 51
214.083175857
  0
ARC
  5
B0
  8
0
  6
CONTINUOUS
 62
     7
 10
165.1080581147
 20
99.9702045496
 30
0.0
 40
6.034845162596784
 50
326.3678908267
 51
356.6737289156
  0
LINE
  5
B1
  8
0
  6
CONTINUOUS
 62
     7
 10
157.1327364798
 20
96.6277558269
 30
0.0
 11
170.1327364798
 21
96.6277558269
 31
0.0
  0
ARC
  5
B2
  8
0
  6
CONTINUOUS
 62
     7
 10
162.1574148449
 20
120.7698996629
 30
0.0
 40
6.034845162596838
 50
146.3678908267
 51
176.6737289156
  0
LINE
  5
B3
  8
0
  6
CONTINUOUS
 62
     7
 10
170.1327364798
 20
124.1123483856
 30
0.0
 11
157.1327364798
 21
124.1123483856
 31
0.0
  0
ARC
  5
B4
  8
0
  6
CONTINUOUS
 62
     7
 10
165.2755748076
 20
120.8258823188
 30
0.0
 40
5.864544203747935
 50
2.8752044007
 51
34.083175857
  0
LINE
  5
B5
  8
0
  6
CONTINUOUS
 62
     7
 10
183.1327364798
 20
92.8700521062
 30
0.0
 11
183.1327364798
 21
127.8700521062
 31
0.0
  0
LINE
  5
B6
  8
0
  6
CONTINUOUS
 62
     7
 10
180.1327364798
 20
89.8700521062
 30
0.0
 11
180.1327364798
 21
130.8700521062
 31
0.0
  0
LINE
  5
B7
  8
0
  6
CONTINUOUS
 62
     7
 10
157.1327364798
 20
96.6277558269
 30
0.0
 11
157.1327364798
 21
92.5543485566
 31
0.0
  0
ARC
  5
B8
  8
0
  6
CONTINUOUS
 62
     7
 10
156.9855767129
 20
91.7134853145
 30
0.0
 40
0.8536433616218047
 50
80.073179331
 51
177.5144301734
  0
LINE
  5
B9
  8
0
  6
CONTINUOUS
 62
     7
 10
156.1327364798
 20
91.7505059249
 30
0.0
 11
156.1327364798
 21
99.6200521062
 31
0.0
  0
LINE
  5
BA
  8
0
  6
CONTINUOUS
 62
     7
 10
170.1327364798
 20
124.1123483856
 30
0.0
 11
170.1327364798
 21
128.1857556559
 31
0.0
  0
ARC
  5
BB
  8
0
  6
CONTINUOUS
 62
     7
 10
170.2798962467
 20
129.026618898
 30
0.0
 40
0.853643361621838
 50
260.073179331
 51
357.5144301734
  0
LINE
  5
BC
  8
0
  6
CONTINUOUS
 62
     7
 10
171.1327364798
 20
128.9895982876
 30
0.0
 11
171.1327364798
 21
121.1200521062
 31
0.0
  0
LINE
  5
BD
  8
0
  6
CONTINUOUS
 62
     7
 10
170.1327364798
 20
92.5543485566
 30
0.0
 11
170.1327364798
 21
96.6277558269
 31
0.0
  0
POLYLINE
  5
BE
  8
0
  6
CONTINUOUS
 62
     7
 66
     1
 10
0.0
 20
0.0
 30
0.0
 70
   128
  0
VERTEX
  5
16B
  8
0
  6
CONTINUOUS
 62
     7
 10
170.1327364798
 20
92.5543485566
 30
0.0
  0
VERTEX
  5
16C
  8
0
  6
CONTINUOUS
 62
     7
 10
170.6645141779
 20
92.4672971783
 30
0.0
  0
VERTEX
  5
16D
  8
0
  6
CONTINUOUS
 62
     7
 10
170.9073737495
 20
92.3206558755
 30
0.0
  0
VERTEX
  5
16E
  8
0
  6
CONTINUOUS
 62
     7
 10
171.0710916435
 20
92.0884579737
 30
0.0
  0
VERTEX
  5
16F
  8
0
  6
CONTINUOUS
 62
     7
 10
171.1327364798
 20
91.7505059249
 30
0.0
  0
SEQEND
  5
1A2
  8
0
  6
CONTINUOUS
 62
     7
  0
LINE
  5
BF
  8
0
  6
CONTINUOUS
 62
     7
 10
171.1327364798
 20
99.6200521062
 30
0.0
 11
171.1327364798
 21
91.7505059249
 31
0.0
  0
LINE
  5
C0
  8
0
  6
CONTINUOUS
 62
     7
 10
157.1327364798
 20
128.1857556559
 30
0.0
 11
157.1327364798
 21
124.1123483856
 31
0.0
  0
POLYLINE
  5
C1
  8
0
  6
CONTINUOUS
 62
     7
 66
     1
 10
0.0
 20
0.0
 30
0.0
 70
   128
  0
VERTEX
  5
170
  8
0
  6
CONTINUOUS
 62
     7
 10
157.1327364798
 20
128.1857556559
 30
0.0
  0
VERTEX
  5
171
  8
0
  6
CONTINUOUS
 62
     7
 10
156.6009587817
 20
128.2728070342
 30
0.0
  0
VERTEX
  5
172
  8
0
  6
CONTINUOUS
 62
     7
 10
156.3580992101
 20
128.419448337
 30
0.0
  0
VERTEX
  5
173
  8
0
  6
CONTINUOUS
 62
     7
 10
156.1943813161
 20
128.6516462388
 30
0.0
  0
VERTEX
  5
174
  8
0
  6
CONTINUOUS
 62
     7
 10
156.1327364798
 20
128.9895982876
 30
0.0
  0
SEQEND
  5
1A3
  8
0
  6
CONTINUOUS
 62
     7
  0
LINE
  5
C2
  8
0
  6
CONTINUOUS
 62
     7
 10
156.1327364798
 20
121.1200521062
 30
0.0
 11
156.1327364798
 21
128.9895982876
 31
0.0
  0
LINE
  5
C3
  8
0
  6
CONTINUOUS
 62
     7
 10
170.1327364798
 20
92.5543485566
 30
0.0
 11
157.1327364798
 21
92.5543485566
 31
0.0
  0
LINE
  5
C4
  8
0
  6
CONTINUOUS
 62
     7
 10
157.1327364798
 20
128.1857556559
 30
0.0
 11
170.1327364798
 21
128.1857556559
 31
0.0
  0
LINE
  5
C5
  8
0
  6
CONTINUOUS
 62
     7
 10
186.1327364798
 20
95.5700521062
 30
0.0
 11
186.1327364798
 21
125.1700521062
 31
0.0
  0
LINE
  5
C6
  8
0
  6
CONTINUOUS
 62
     7
 10
185.9327364798
 20
95.3700521062
 30
0.0
 11
185.9327364798
 21
125.3700521062
 31
0.0
  0
ARC
  5
C7
  8
0
  6
CONTINUOUS
 62
     7
 10
160.4290531192
 20
92.3896513077
 30
0.0
 40
4.343597988587248
 50
188.4615999627
 51
220.6334876326
  0
ARC
  5
C8
  8
0
  6
CONTINUOUS
 62
     7
 10
166.548139116
 20
92.5213174078
 30
0.0
 40
4.648944324313812
 50
320.4488300248
 51
350.4560823799
  0
LINE
  5
C9
  8
0
  6
CONTINUOUS
 62
     7
 10
157.1327364798
 20
89.5610226471
 30
0.0
 11
170.1327364798
 21
89.5610226471
 31
0.0
  0
ARC
  5
CA
  8
0
  6
CONTINUOUS
 62
     7
 10
160.7173338436
 20
128.2187868047
 30
0.0
 40
4.648944324313625
 50
140.4488300248
 51
170.4560823799
  0
LINE
  5
CB
  8
0
  6
CONTINUOUS
 62
     7
 10
170.1327364798
 20
131.1790815653
 30
0.0
 11
157.1327364798
 21
131.1790815653
 31
0.0
  0
ARC
  5
CC
  8
0
  6
CONTINUOUS
 62
     7
 10
166.8364198404
 20
128.3504529048
 30
0.0
 40
4.343597988587244
 50
8.4615999627
 51
40.6334876326
  0
LINE
  5
CD
  8
0
  6
CONTINUOUS
 62
     7
 10
189.7797364798
 20
97.3700521062
 30
0.0
 11
189.7797364798
 21
123.3700521062
 31
0.0
  0
LINE
  5
CE
  8
0
  6
CONTINUOUS
 62
     7
 10
190.1327364798
 20
123.0170521062
 30
0.0
 11
190.1327364798
 21
97.7230521062
 31
0.0
  0
LINE
  5
CF
  8
0
  6
CONTINUOUS
 62
     7
 10
187.1327364798
 20
97.3700521062
 30
0.0
 11
187.1327364798
 21
123.3700521062
 31
0.0
  0
LINE
  5
D0
  8
0
  6
CONTINUOUS
 62
     7
 10
191.1327364798
 20
98.1700521062
 30
0.0
 11
191.1327364798
 21
122.5700521062
 31
0.0
  0
LINE
  5
D1
  8
0
  6
CONTINUOUS
 62
     7
 10
190.8327364798
 20
97.8700521062
 30
0.0
 11
190.8327364798
 21
122.8700521062
 31
0.0
  0
LINE
  5
D2
  8
0
  6
CONTINUOUS
 62
     7
 10
170.1327364798
 20
88.0700521062
 30
0.0
 11
170.1327364798
 21
89.5610226471
 31
0.0
  0
ARC
  5
D3
  8
0
  6
CONTINUOUS
 62
     7
 10
206.5403984492
 20
43.5854746445
 30
0.0
 40
57.48387149470594
 50
128.0215777868
 51
129.2980387214
  0
LINE
  5
D4
  8
0
  6
CONTINUOUS
 62
     7
 10
171.1327364798
 20
91.7505059249
 30
0.0
 11
171.1327364798
 21
88.8700521062
 31
0.0
  0
LINE
  5
D5
  8
0
  6
CONTINUOUS
 62
     7
 10
157.1327364798
 20
89.5610226471
 30
0.0
 11
157.1327364798
 21
88.0700521062
 31
0.0
  0
ARC
  5
D6
  8
0
  6
CONTINUOUS
 62
     7
 10
120.7405847006
 20
43.6048623823
 30
0.0
 40
57.45904461705098
 50
50.7016855009
 51
51.978697991
  0
LINE
  5
D7
  8
0
  6
CONTINUOUS
 62
     7
 10
156.1327364798
 20
88.8700521062
 30
0.0
 11
156.1327364798
 21
91.7505059249
 31
0.0
  0
LINE
  5
D8
  8
0
  6
CONTINUOUS
 62
     7
 10
170.1327364798
 20
131.1790815653
 30
0.0
 11
170.1327364798
 21
132.6700521062
 31
0.0
  0
ARC
  5
D9
  8
0
  6
CONTINUOUS
 62
     7
 10
206.5248882592
 20
177.1352418305
 30
0.0
 40
57.45904461745192
 50
230.7016855009
 51
231.978697991
  0
LINE
  5
DA
  8
0
  6
CONTINUOUS
 62
     7
 10
171.1327364798
 20
131.8700521062
 30
0.0
 11
171.1327364798
 21
128.9895982876
 31
0.0
  0
ARC
  5
DB
  8
0
  6
CONTINUOUS
 62
     7
 10
120.7250745101
 20
177.1546295683
 30
0.0
 40
57.48387149521621
 50
308.0215777868
 51
309.2980387214
  0
LINE
  5
DC
  8
0
  6
CONTINUOUS
 62
     7
 10
157.1327364798
 20
132.6700521062
 30
0.0
 11
157.1327364798
 21
131.1790815653
 31
0.0
  0
LINE
  5
DD
  8
0
  6
CONTINUOUS
 62
     7
 10
156.1327364798
 20
128.9895982876
 30
0.0
 11
156.1327364798
 21
131.8700521062
 31
0.0
  0
LINE
  5
DE
  8
0
  6
CONTINUOUS
 62
     7
 10
170.1327364798
 20
88.0700521062
 30
0.0
 11
157.1327364798
 21
88.0700521062
 31
0.0
  0
LINE
  5
DF
  8
0
  6
CONTINUOUS
 62
     7
 10
157.1327364798
 20
132.6700521062
 30
0.0
 11
170.1327364798
 21
132.6700521062
 31
0.0
  0
LINE
  5
E0
  8
1
 10
91.1327364798
 20
105.3700521062
 30
0.0
 11
91.1327364798
 21
115.3700521062
 31
0.0
  0
LINE
  5
E1
  8
1
  6
CENTERX2
 10
91.1345142995
 20
110.3700521062
 30
0.0
 11
194.6409751183
 21
110.3700521062
 31
0.0
  0
POLYLINE
  5
E2
  8
0
  6
CONTINUOUS
 62
     7
 66
     1
 10
0.0
 20
0.0
 30
0.0
 70
   128
  0
VERTEX
  5
175
  8
0
  6
CONTINUOUS
 62
     7
 10
249.1386998572
 20
88.3700521062
 30
0.0
  0
VERTEX
  5
176
  8
0
  6
CONTINUOUS
 62
     7
 10
247.6373667632
 20
88.421339184
 30
0.0
  0
VERTEX
  5
177
  8
0
  6
CONTINUOUS
 62
     7
 10
247.0950031303
 20
88.4651827004
 30
0.0
  0
SEQEND
  5
1A4
  8
0
  6
CONTINUOUS
 62
     7
  0
ARC
  5
E3
  8
0
  6
CONTINUOUS
 62
     7
 10
249.1386998572
 20
110.3700521062
 30
0.0
 40
22.0
 50
234.7035884759
 51
245.4023250921
  0
ARC
  5
E4
  8
0
  6
CONTINUOUS
 62
     7
 10
249.1386998572
 20
110.3700521062
 30
0.0
 40
21.99999999999999
 50
204.6756720958
 51
215.5095061224
  0
ARC
  5
E5
  8
0
  6
CONTINUOUS
 62
     7
 10
249.1386998572
 20
110.3700521062
 30
0.0
 40
22.0
 50
174.6092114697
 51
185.3711836404
  0
ARC
  5
E6
  8
0
  6
CONTINUOUS
 62
     7
 10
249.1386998572
 20
110.3700521062
 30
0.0
 40
21.99999999999997
 50
144.4884620359
 51
155.3042218821
  0
ARC
  5
E7
  8
0
  6
CONTINUOUS
 62
     7
 10
249.1386998572
 20
110.3700521062
 30
0.0
 40
21.99999999999999
 50
114.5313443483
 51
125.2702084659
  0
ARC
  5
E8
  8
0
  6
CONTINUOUS
 62
     7
 10
249.1386998572
 20
110.3700521062
 30
0.0
 40
21.99999999999999
 50
84.6593035949
 51
95.259364691
  0
ARC
  5
E9
  8
0
  6
CONTINUOUS
 62
     7
 10
249.1386998572
 20
110.3700521062
 30
0.0
 40
22.0
 50
54.7017338822
 51
65.3796189946
  0
ARC
  5
EA
  8
0
  6
CONTINUOUS
 62
     7
 10
249.1386998572
 20
110.3700521062
 30
0.0
 40
22.00000000000001
 50
24.6849689162
 51
35.5347034348
  0
ARC
  5
EB
  8
0
  6
CONTINUOUS
 62
     7
 10
249.1386998572
 20
110.3700521062
 30
0.0
 40
22.00000000000004
 50
354.6285754421
 51
5.3632197975
  0
ARC
  5
EC
  8
0
  6
CONTINUOUS
 62
     7
 10
249.1386998572
 20
110.3700521062
 30
0.0
 40
22.00000000000005
 50
324.507971098
 51
335.3152217664
  0
ARC
  5
ED
  8
0
  6
CONTINUOUS
 62
     7
 10
249.1386998572
 20
110.3700521062
 30
0.0
 40
22.00000000000003
 50
294.5082175282
 51
305.2723445873
  0
POLYLINE
  5
EE
  8
0
  6
CONTINUOUS
 62
     7
 66
     1
 10
0.0
 20
0.0
 30
0.0
 70
   128
  0
VERTEX
  5
178
  8
0
  6
CONTINUOUS
 62
     7
 10
251.1526813778
 20
88.4624306371
 30
0.0
  0
VERTEX
  5
179
  8
0
  6
CONTINUOUS
 62
     7
 10
250.6400329512
 20
88.421339184
 30
0.0
  0
VERTEX
  5
17A
  8
0
  6
CONTINUOUS
 62
     7
 10
249.1386998572
 20
88.3700521062
 30
0.0
  0
SEQEND
  5
1A5
  8
0
  6
CONTINUOUS
 62
     7
  0
CIRCLE
  5
EF
  8
0
  6
CONTINUOUS
 62
     7
 10
249.1386998572
 20
110.3700521062
 30
0.0
 40
12.2
  0
CIRCLE
  5
F0
  8
0
  6
CONTINUOUS
 62
     7
 10
249.1386998572
 20
110.3700521062
 30
0.0
 40
12.50000000000001
  0
CIRCLE
  5
F1
  8
0
  6
CONTINUOUS
 62
     7
 10
249.1386998572
 20
110.3700521062
 30
0.0
 40
11.00000000000001
  0
CIRCLE
  5
F2
  8
0
  6
CONTINUOUS
 62
     7
 10
249.1386998572
 20
110.3700521062
 30
0.0
 40
13.00000000000001
  0
CIRCLE
  5
F3
  8
0
  6
CONTINUOUS
 62
     7
 10
249.1386998572
 20
110.3700521062
 30
0.0
 40
12.64699999999999
  0
CIRCLE
  5
F4
  8
0
  6
CONTINUOUS
 62
     7
 10
249.1386998572
 20
110.3700521062
 30
0.0
 40
14.80000000000001
  0
CIRCLE
  5
F5
  8
0
  6
CONTINUOUS
 62
     7
 10
249.1386998572
 20
110.3700521062
 30
0.0
 40
15.0
  0
CIRCLE
  5
F6
  8
0
  6
CONTINUOUS
 62
     7
 10
249.1386998572
 20
110.3700521062
 30
0.0
 40
17.50000000000001
  0
CIRCLE
  5
F7
  8
0
  6
CONTINUOUS
 62
     7
 10
249.1386998572
 20
110.3700521062
 30
0.0
 40
20.5
  0
ARC
  5
F8
  8
0
  6
CONTINUOUS
 62
     7
 10
249.1386998572
 20
110.3700521062
 30
0.0
 40
21.49999999999997
 50
150.0
 51
180.0
  0
ARC
  5
F9
  8
0
  6
CONTINUOUS
 62
     7
 10
249.1386998572
 20
110.3700521062
 30
0.0
 40
21.49999999999994
 50
120.0
 51
150.0
  0
ARC
  5
FA
  8
0
  6
CONTINUOUS
 62
     7
 10
249.1386998572
 20
110.3700521062
 30
0.0
 40
21.49999999999997
 50
90.0
 51
120.0
  0
ARC
  5
FB
  8
0
  6
CONTINUOUS
 62
     7
 10
249.1386998572
 20
110.3700521062
 30
0.0
 40
21.49999999999997
 50
60.0
 51
90.0
  0
ARC
  5
FC
  8
0
  6
CONTINUOUS
 62
     7
 10
249.1386998572
 20
110.3700521062
 30
0.0
 40
21.49999999999998
 50
30.0
 51
60.0
  0
ARC
  5
FD
  8
0
  6
CONTINUOUS
 62
     7
 10
249.1386998572
 20
110.3700521062
 30
0.0
 40
21.5
 50
0.0
 51
30.0
  0
ARC
  5
FE
  8
0
  6
CONTINUOUS
 62
     7
 10
249.1386998572
 20
110.3700521062
 30
0.0
 40
21.5
 50
330.0
 51
0.0
  0
ARC
  5
FF
  8
0
  6
CONTINUOUS
 62
     7
 10
249.1386998572
 20
110.3700521062
 30
0.0
 40
21.49999999999998
 50
300.0
 51
330.0
  0
ARC
  5
100
  8
0
  6
CONTINUOUS
 62
     7
 10
249.1386998572
 20
110.3700521062
 30
0.0
 40
21.49999999999998
 50
270.0
 51
300.0
  0
ARC
  5
101
  8
0
  6
CONTINUOUS
 62
     7
 10
249.1386998572
 20
110.3700521062
 30
0.0
 40
21.49999999999997
 50
240.0
 51
270.0
  0
ARC
  5
102
  8
0
  6
CONTINUOUS
 62
     7
 10
249.1386998572
 20
110.3700521062
 30
0.0
 40
21.49999999999995
 50
210.0
 51
240.0
  0
ARC
  5
103
  8
0
  6
CONTINUOUS
 62
     7
 10
249.1386998572
 20
110.3700521062
 30
0.0
 40
21.49999999999997
 50
180.0
 51
210.0
  0
ARC
  5
104
  8
0
  6
CONTINUOUS
 62
     7
 10
249.1386998572
 20
110.3700521062
 30
0.0
 40
22.50000000000002
 50
37.6451074585
 51
52.3548925415
  0
ARC
  5
105
  8
0
  6
CONTINUOUS
 62
     7
 10
272.9543984612
 20
124.1200521062
 30
0.0
 40
5.999999999999933
 50
180.0735651334
 51
210.0
  0
ARC
  5
106
  8
0
  6
CONTINUOUS
 62
     7
 10
262.8886998572
 20
134.1857507103
 30
0.0
 40
6.000000000000473
 50
240.0
 51
269.9264348666
  0
ARC
  5
107
  8
0
  6
CONTINUOUS
 62
     7
 10
249.1386998572
 20
110.3700521062
 30
0.0
 40
22.50000000000001
 50
7.6451074585
 51
22.3548925415
  0
ARC
  5
108
  8
0
  6
CONTINUOUS
 62
     7
 10
276.6386998572
 20
110.3700521062
 30
0.0
 40
5.999999999999604
 50
150.0735651334
 51
180.0
  0
ARC
  5
109
  8
0
  6
CONTINUOUS
 62
     7
 10
272.9543984612
 20
124.1200521062
 30
0.0
 40
6.000000000001398
 50
210.0
 51
239.9264348666
  0
ARC
  5
10A
  8
0
  6
CONTINUOUS
 62
     7
 10
249.1386998572
 20
110.3700521062
 30
0.0
 40
22.5
 50
67.6451074585
 51
82.3548925415
  0
ARC
  5
10B
  8
0
  6
CONTINUOUS
 62
     7
 10
262.8886998572
 20
134.1857507103
 30
0.0
 40
6.000000000000198
 50
210.0735651334
 51
240.0
  0
ARC
  5
10C
  8
0
  6
CONTINUOUS
 62
     7
 10
249.1386998572
 20
137.8700521062
 30
0.0
 40
6.0
 50
270.0
 51
299.9264348666
  0
ARC
  5
10D
  8
0
  6
CONTINUOUS
 62
     7
 10
249.1386998572
 20
110.3700521062
 30
0.0
 40
22.50000000000001
 50
337.6451074585
 51
352.3548925415
  0
ARC
  5
10E
  8
0
  6
CONTINUOUS
 62
     7
 10
272.9543984612
 20
96.6200521062
 30
0.0
 40
6.000000000001402
 50
120.0735651334
 51
150.0
  0
ARC
  5
10F
  8
0
  6
CONTINUOUS
 62
     7
 10
276.6386998572
 20
110.3700521062
 30
0.0
 40
6.000000000000682
 50
180.0
 51
209.9264348666
  0
ARC
  5
110
  8
0
  6
CONTINUOUS
 62
     7
 10
249.1386998572
 20
110.3700521062
 30
0.0
 40
22.50000000000002
 50
307.6451074585
 51
322.3548925415
  0
ARC
  5
111
  8
0
  6
CONTINUOUS
 62
     7
 10
262.8886998572
 20
86.5543535022
 30
0.0
 40
6.000000000000573
 50
90.0735651334
 51
120.0
  0
ARC
  5
112
  8
0
  6
CONTINUOUS
 62
     7
 10
272.9543984612
 20
96.6200521062
 30
0.0
 40
6.000000000000957
 50
150.0
 51
179.9264348666
  0
ARC
  5
113
  8
0
  6
CONTINUOUS
 62
     7
 10
249.1386998572
 20
110.3700521062
 30
0.0
 40
22.5
 50
97.6451074585
 51
112.3548925415
  0
ARC
  5
114
  8
0
  6
CONTINUOUS
 62
     7
 10
249.1386998572
 20
137.8700521062
 30
0.0
 40
5.999999999999801
 50
240.0735651334
 51
270.0
  0
ARC
  5
115
  8
0
  6
CONTINUOUS
 62
     7
 10
235.3886998572
 20
134.1857507103
 30
0.0
 40
6.000000000001271
 50
300.0
 51
329.9264348666
  0
ARC
  5
116
  8
0
  6
CONTINUOUS
 62
     7
 10
249.1386998572
 20
110.3700521062
 30
0.0
 40
22.50000000000002
 50
277.6451074585
 51
292.3548925415
  0
ARC
  5
117
  8
0
  6
CONTINUOUS
 62
     7
 10
249.1386998572
 20
82.8700521062
 30
0.0
 40
6.000000000000878
 50
60.0735651334
 51
90.0
  0
ARC
  5
118
  8
0
  6
CONTINUOUS
 62
     7
 10
262.8886998572
 20
86.5543535022
 30
0.0
 40
6.000000000000644
 50
120.0
 51
149.9264348666
  0
ARC
  5
119
  8
0
  6
CONTINUOUS
 62
     7
 10
225.3230012531
 20
124.1200521062
 30
0.0
 40
6.00000000000064
 50
330.0
 51
359.9264348666
  0
ARC
  5
11A
  8
0
  6
CONTINUOUS
 62
     7
 10
249.1386998572
 20
110.3700521062
 30
0.0
 40
22.5
 50
127.6451074585
 51
142.3548925415
  0
ARC
  5
11B
  8
0
  6
CONTINUOUS
 62
     7
 10
235.3886998572
 20
134.1857507103
 30
0.0
 40
6.000000000000901
 50
270.0735651334
 51
300.0
  0
ARC
  5
11C
  8
0
  6
CONTINUOUS
 62
     7
 10
249.1386998572
 20
110.3700521062
 30
0.0
 40
22.5
 50
247.6451074585
 51
262.3548925415
  0
ARC
  5
11D
  8
0
  6
CONTINUOUS
 62
     7
 10
235.3886998572
 20
86.5543535022
 30
0.0
 40
6.000000000000874
 50
30.0735651334
 51
60.0
  0
ARC
  5
11E
  8
0
  6
CONTINUOUS
 62
     7
 10
249.1386998572
 20
82.8700521062
 30
0.0
 40
6.000000000000792
 50
90.0
 51
119.9264348666
  0
ARC
  5
11F
  8
0
  6
CONTINUOUS
 62
     7
 10
221.6386998572
 20
110.3700521062
 30
0.0
 40
5.999999999999604
 50
0.0
 51
29.9264348666
  0
ARC
  5
120
  8
0
  6
CONTINUOUS
 62
     7
 10
249.1386998572
 20
110.3700521062
 30
0.0
 40
22.49999999999998
 50
157.6451074585
 51
172.3548925415
  0
ARC
  5
121
  8
0
  6
CONTINUOUS
 62
     7
 10
225.3230012531
 20
124.1200521062
 30
0.0
 40
6.000000000000346
 50
300.0735651334
 51
330.0
  0
ARC
  5
122
  8
0
  6
CONTINUOUS
 62
     7
 10
249.1386998572
 20
110.3700521062
 30
0.0
 40
22.5
 50
217.6451074585
 51
232.3548925415
  0
ARC
  5
123
  8
0
  6
CONTINUOUS
 62
     7
 10
225.3230012531
 20
96.6200521062
 30
0.0
 40
6.000000000001469
 50
0.0735651334
 51
30.0
  0
ARC
  5
124
  8
0
  6
CONTINUOUS
 62
     7
 10
235.3886998572
 20
86.5543535022
 30
0.0
 40
6.000000000000777
 50
60.0
 51
89.9264348666
  0
ARC
  5
125
  8
0
  6
CONTINUOUS
 62
     7
 10
249.1386998572
 20
110.3700521062
 30
0.0
 40
22.49999999999998
 50
187.6451074585
 51
202.3548925415
  0
ARC
  5
126
  8
0
  6
CONTINUOUS
 62
     7
 10
221.6386998572
 20
110.3700521062
 30
0.0
 40
5.999999999999805
 50
330.0735651334
 51
0.0
  0
ARC
  5
127
  8
0
  6
CONTINUOUS
 62
     7
 10
225.3230012531
 20
96.6200521062
 30
0.0
 40
6.000000000000671
 50
30.0
 51
59.9264348666
  0
CIRCLE
  5
128
  8
0
  6
CONTINUOUS
 62
     7
 10
249.1386998572
 20
110.3700521062
 30
0.0
 40
9.000000000000014
  0
CIRCLE
  5
129
  8
0
  6
CONTINUOUS
 62
     7
 10
259.1386998572
 20
110.3700521062
 30
0.0
 40
0.5
  0
CIRCLE
  5
12A
  8
0
  6
CONTINUOUS
 62
     7
 10
239.1386998572
 20
110.3700521062
 30
0.0
 40
0.5
  0
CIRCLE
  5
12B
  8
0
  6
CONTINUOUS
 62
     7
 10
249.1386998572
 20
110.3700521062
 30
0.0
 40
7.500000000000014
  0
INSERT
  5
137
  8
1
  2
SW_CENTERMARKSYMBOL_0
 10
249.1386998572
 20
110.3700521062
 30
0.0
  0
CIRCLE
  5
138
  8
0
  6
CONTINUOUS
 62
     7
 10
40.2683896951
 20
110.3700521062
 30
0.0
 40
22.0
  0
CIRCLE
  5
139
  8
0
  6
CONTINUOUS
 62
     7
 10
40.2683896951
 20
110.3700521062
 30
0.0
 40
21.0
  0
CIRCLE
  5
13A
  8
0
  6
CONTINUOUS
 62
     7
 10
40.2683896951
 20
110.3700521062
 30
0.0
 40
9.000000000000014
  0
LINE
  5
13B
  8
0
  6
CONTINUOUS
 62
     7
 10
48.8260934157
 20
89.5610226471
 30
0.0
 11
49.3989368287
 21
90.3814771973
 31
0.0
  0
ARC
  5
13C
  8
0
  6
CONTINUOUS
 62
     7
 10
40.2683896951
 20
110.3700521062
 30
0.0
 40
22.5
 50
277.6451074586
 51
292.3548925415
  0
LINE
  5
13D
  8
0
  6
CONTINUOUS
 62
     7
 10
42.2848705747
 20
88.507814139
 30
0.0
 11
43.2617156045
 21
88.0700521062
 31
0.0
  0
LINE
  5
13E
  8
0
  6
CONTINUOUS
 62
     7
 10
37.2750637856
 20
88.0700521062
 30
0.0
 11
38.2346971434
 21
88.5124903797
 31
0.0
  0
ARC
  5
13F
  8
0
  6
CONTINUOUS
 62
     7
 10
40.2683896951
 20
110.3700521062
 30
0.0
 40
22.50000000000002
 50
247.6451074586
 51
262.3548925415
  0
POLYLINE
  5
140
  8
0
  6
CONTINUOUS
 62
     7
 66
     1
 10
0.0
 20
0.0
 30
0.0
 70
   128
  0
VERTEX
  5
17B
  8
0
  6
CONTINUOUS
 62
     7
 10
31.1364832491
 20
90.3721226
 30
0.0
  0
VERTEX
  5
17C
  8
0
  6
CONTINUOUS
 62
     7
 10
31.3731552532
 20
90.0801514793
 30
0.0
  0
VERTEX
  5
17D
  8
0
  6
CONTINUOUS
 62
     7
 10
31.7106859744
 20
89.5610226471
 30
0.0
  0
SEQEND
  5
1A6
  8
0
  6
CONTINUOUS
 62
     7
  0
POLYLINE
  5
141
  8
0
  6
CONTINUOUS
 62
     7
 66
     1
 10
0.0
 20
0.0
 30
0.0
 70
   128
  0
VERTEX
  5
17E
  8
0
  6
CONTINUOUS
 62
     7
 10
26.5260934157
 20
92.5543485566
 30
0.0
  0
VERTEX
  5
17F
  8
0
  6
CONTINUOUS
 62
     7
 10
27.536769331
 20
92.4672971783
 30
0.0
  0
VERTEX
  5
180
  8
0
  6
CONTINUOUS
 62
     7
 10
27.5853947957
 20
92.4561533228
 30
0.0
  0
SEQEND
  5
1A7
  8
0
  6
CONTINUOUS
 62
     7
  0
ARC
  5
142
  8
0
  6
CONTINUOUS
 62
     7
 10
40.2683896951
 20
110.3700521062
 30
0.0
 40
22.5
 50
217.6451074586
 51
232.3548925415
  0
POLYLINE
  5
143
  8
0
  6
CONTINUOUS
 62
     7
 66
     1
 10
0.0
 20
0.0
 30
0.0
 70
   128
  0
VERTEX
  5
181
  8
0
  6
CONTINUOUS
 62
     7
 10
22.361253486
 20
97.6154556796
 30
0.0
  0
VERTEX
  5
182
  8
0
  6
CONTINUOUS
 62
     7
 10
22.4199403823
 20
97.246099944
 30
0.0
  0
VERTEX
  5
183
  8
0
  6
CONTINUOUS
 62
     7
 10
22.4526861454
 20
96.6277558269
 30
0.0
  0
SEQEND
  5
1A8
  8
0
  6
CONTINUOUS
 62
     7
  0
LINE
  5
144
  8
0
  6
CONTINUOUS
 62
     7
 10
58.0840932447
 20
96.6277558269
 30
0.0
 11
58.1668390011
 21
97.5884430064
 31
0.0
  0
ARC
  5
145
  8
0
  6
CONTINUOUS
 62
     7
 10
40.2683896951
 20
110.3700521062
 30
0.0
 40
22.50000000000001
 50
307.6451074586
 51
322.3548925415
  0
POLYLINE
  5
146
  8
0
  6
CONTINUOUS
 62
     7
 66
     1
 10
0.0
 20
0.0
 30
0.0
 70
   128
  0
VERTEX
  5
184
  8
0
  6
CONTINUOUS
 62
     7
 10
52.942299674
 20
92.4500956355
 30
0.0
  0
VERTEX
  5
185
  8
0
  6
CONTINUOUS
 62
     7
 10
53.3923418573
 20
92.5216027935
 30
0.0
  0
VERTEX
  5
186
  8
0
  6
CONTINUOUS
 62
     7
 10
54.0106859744
 20
92.5543485566
 30
0.0
  0
SEQEND
  5
1A9
  8
0
  6
CONTINUOUS
 62
     7
  0
ARC
  5
147
  8
0
  6
CONTINUOUS
 62
     7
 10
40.2683896951
 20
110.3700521062
 30
0.0
 40
22.5
 50
187.6451074585
 51
202.3548925415
  0
LINE
  5
148
  8
0
  6
CONTINUOUS
 62
     7
 10
18.3981712739
 20
108.3357632255
 30
0.0
 11
17.9683896951
 21
107.3767261968
 31
0.0
  0
POLYLINE
  5
149
  8
0
  6
CONTINUOUS
 62
     7
 66
     1
 10
0.0
 20
0.0
 30
0.0
 70
   128
  0
VERTEX
  5
187
  8
0
  6
CONTINUOUS
 62
     7
 10
19.459360236
 20
101.8123483856
 30
0.0
  0
VERTEX
  5
188
  8
0
  6
CONTINUOUS
 62
     7
 10
20.2911055645
 20
101.2316217229
 30
0.0
  0
VERTEX
  5
189
  8
0
  6
CONTINUOUS
 62
     7
 10
20.3131654146
 20
101.2111167113
 30
0.0
  0
SEQEND
  5
1AA
  8
0
  6
CONTINUOUS
 62
     7
  0
ARC
  5
14A
  8
0
  6
CONTINUOUS
 62
     7
 10
66.5987412909
 20
109.8059267173
 30
0.0
 40
4.705820773773613
 50
198.673151029
 51
211.0784922154
  0
ARC
  5
14B
  8
0
  6
CONTINUOUS
 62
     7
 10
40.2683896951
 20
110.3700521062
 30
0.0
 40
22.50000000000001
 50
337.6451074586
 51
352.3548925415
  0
POLYLINE
  5
14C
  8
0
  6
CONTINUOUS
 62
     7
 66
     1
 10
0.0
 20
0.0
 30
0.0
 70
   128
  0
VERTEX
  5
18A
  8
0
  6
CONTINUOUS
 62
     7
 10
60.2119733188
 20
101.1940928482
 30
0.0
  0
VERTEX
  5
18B
  8
0
  6
CONTINUOUS
 62
     7
 10
60.558290322
 20
101.4748176643
 30
0.0
  0
VERTEX
  5
18C
  8
0
  6
CONTINUOUS
 62
     7
 10
61.0774191542
 20
101.8123483856
 30
0.0
  0
SEQEND
  5
1AB
  8
0
  6
CONTINUOUS
 62
     7
  0
ARC
  5
14D
  8
0
  6
CONTINUOUS
 62
     7
 10
40.2683896951
 20
110.3700521062
 30
0.0
 40
22.49999999999999
 50
157.6451074585
 51
172.3548925415
  0
POLYLINE
  5
14E
  8
0
  6
CONTINUOUS
 62
     7
 66
     1
 10
0.0
 20
0.0
 30
0.0
 70
   128
  0
VERTEX
  5
18D
  8
0
  6
CONTINUOUS
 62
     7
 10
20.3273995698
 20
119.548113656
 30
0.0
  0
VERTEX
  5
18E
  8
0
  6
CONTINUOUS
 62
     7
 10
19.9784890682
 20
119.2652865481
 30
0.0
  0
VERTEX
  5
18F
  8
0
  6
CONTINUOUS
 62
     7
 10
19.459360236
 20
118.9277558269
 30
0.0
  0
SEQEND
  5
1AC
  8
0
  6
CONTINUOUS
 62
     7
  0
LINE
  5
14F
  8
0
  6
CONTINUOUS
 62
     7
 10
17.9683896951
 20
113.3633780157
 30
0.0
 11
18.392592795
 21
112.4432961205
 31
0.0
  0
ARC
  5
150
  8
0
  6
CONTINUOUS
 62
     7
 10
40.2683896951
 20
110.3700521062
 30
0.0
 40
22.5
 50
7.6451074585
 51
22.3548925415
  0
POLYLINE
  5
151
  8
0
  6
CONTINUOUS
 62
     7
 66
     1
 10
0.0
 20
0.0
 30
0.0
 70
   128
  0
VERTEX
  5
190
  8
0
  6
CONTINUOUS
 62
     7
 10
61.0774191542
 20
118.9277558269
 30
0.0
  0
VERTEX
  5
191
  8
0
  6
CONTINUOUS
 62
     7
 10
60.2456738256
 20
119.5084824895
 30
0.0
  0
VERTEX
  5
192
  8
0
  6
CONTINUOUS
 62
     7
 10
60.2198049792
 20
119.532528029
 30
0.0
  0
SEQEND
  5
1AD
  8
0
  6
CONTINUOUS
 62
     7
  0
POLYLINE
  5
152
  8
0
  6
CONTINUOUS
 62
     7
 66
     1
 10
0.0
 20
0.0
 30
0.0
 70
   128
  0
VERTEX
  5
193
  8
0
  6
CONTINUOUS
 62
     7
 10
62.5683896951
 20
113.3633780157
 30
0.0
  0
VERTEX
  5
194
  8
0
  6
CONTINUOUS
 62
     7
 10
62.2698220649
 20
112.7712505605
 30
0.0
  0
VERTEX
  5
195
  8
0
  6
CONTINUOUS
 62
     7
 10
62.1400679073
 20
112.4185905859
 30
0.0
  0
SEQEND
  5
1AE
  8
0
  6
CONTINUOUS
 62
     7
  0
ARC
  5
153
  8
0
  6
CONTINUOUS
 62
     7
 10
40.2683896951
 20
110.3700521062
 30
0.0
 40
22.5
 50
37.6451074585
 51
52.3548925415
  0
POLYLINE
  5
154
  8
0
  6
CONTINUOUS
 62
     7
 66
     1
 10
0.0
 20
0.0
 30
0.0
 70
   128
  0
VERTEX
  5
196
  8
0
  6
CONTINUOUS
 62
     7
 10
54.0106859744
 20
128.1857556559
 30
0.0
  0
VERTEX
  5
197
  8
0
  6
CONTINUOUS
 62
     7
 10
53.0000100591
 20
128.2728070342
 30
0.0
  0
VERTEX
  5
198
  8
0
  6
CONTINUOUS
 62
     7
 10
52.9506132796
 20
128.2841276576
 30
0.0
  0
SEQEND
  5
1AF
  8
0
  6
CONTINUOUS
 62
     7
  0
POLYLINE
  5
155
  8
0
  6
CONTINUOUS
 62
     7
 66
     1
 10
0.0
 20
0.0
 30
0.0
 70
   128
  0
VERTEX
  5
199
  8
0
  6
CONTINUOUS
 62
     7
 10
58.1739518088
 20
123.1345553637
 30
0.0
  0
VERTEX
  5
19A
  8
0
  6
CONTINUOUS
 62
     7
 10
58.1168390078
 20
123.4940042684
 30
0.0
  0
VERTEX
  5
19B
  8
0
  6
CONTINUOUS
 62
     7
 10
58.0840932447
 20
124.1123483856
 30
0.0
  0
SEQEND
  5
1B0
  8
0
  6
CONTINUOUS
 62
     7
  0
ARC
  5
156
  8
0
  6
CONTINUOUS
 62
     7
 10
40.2683896951
 20
110.3700521062
 30
0.0
 40
22.5
 50
127.6451074585
 51
142.3548925415
  0
POLYLINE
  5
157
  8
0
  6
CONTINUOUS
 62
     7
 66
     1
 10
0.0
 20
0.0
 30
0.0
 70
   128
  0
VERTEX
  5
19C
  8
0
  6
CONTINUOUS
 62
     7
 10
27.5937972136
 20
128.2899001343
 30
0.0
  0
VERTEX
  5
19D
  8
0
  6
CONTINUOUS
 62
     7
 10
27.1444375329
 20
128.218501419
 30
0.0
  0
VERTEX
  5
19E
  8
0
  6
CONTINUOUS
 62
     7
 10
26.5260934157
 20
128.1857556559
 30
0.0
  0
SEQEND
  5
1B1
  8
0
  6
CONTINUOUS
 62
     7
  0
LINE
  5
158
  8
0
  6
CONTINUOUS
 62
     7
 10
22.4526861454
 20
124.1123483856
 30
0.0
 11
22.3707818078
 21
123.1614301692
 31
0.0
  0
LINE
  5
159
  8
0
  6
CONTINUOUS
 62
     7
 10
43.2617156045
 20
132.6700521062
 30
0.0
 11
42.3050614424
 21
132.2289873888
 31
0.0
  0
ARC
  5
15A
  8
0
  6
CONTINUOUS
 62
     7
 10
40.2683896951
 20
110.3700521062
 30
0.0
 40
22.5
 50
67.6451074585
 51
82.3548925415
  0
POLYLINE
  5
15B
  8
0
  6
CONTINUOUS
 62
     7
 66
     1
 10
0.0
 20
0.0
 30
0.0
 70
   128
  0
VERTEX
  5
19F
  8
0
  6
CONTINUOUS
 62
     7
 10
49.407636222
 20
130.3589264997
 30
0.0
  0
VERTEX
  5
1A0
  8
0
  6
CONTINUOUS
 62
     7
 10
49.163624137
 20
130.6599527331
 30
0.0
  0
VERTEX
  5
1A1
  8
0
  6
CONTINUOUS
 62
     7
 10
48.8260934157
 20
131.1790815653
 30
0.0
  0
SEQEND
  5
1B2
  8
0
  6
CONTINUOUS
 62
     7
  0
LINE
  5
15C
  8
0
  6
CONTINUOUS
 62
     7
 10
31.7106859744
 20
131.1790815653
 30
0.0
 11
31.1329924592
 21
130.35168046
 31
0.0
  0
ARC
  5
15D
  8
0
  6
CONTINUOUS
 62
     7
 10
40.2683896951
 20
110.3700521062
 30
0.0
 40
22.49999999999999
 50
97.6451074585
 51
112.3548925415
  0
LINE
  5
15E
  8
0
  6
CONTINUOUS
 62
     7
 10
38.2476785352
 20
132.2341858257
 30
0.0
 11
37.2750637856
 21
132.6700521062
 31
0.0
  0
INSERT
  5
16A
  8
1
  2
SW_CENTERMARKSYMBOL_1
 10
40.2683896951
 20
110.3700521062
 30
0.0
  0
ENDSEC
  0
EOF
